Recueils :

Artistes :

Titres :

UN VOTE DE MOINS
Tonalité :
  • G
  • Ab
  • A
  • Bb
  • B
  • C
  • Db
  • D
  • Eb
  • E
  • F
  • Gb
  • G
Intro :
         
|---|--------
|---|--------
|-5-|*-------
|-5-|*-6-5--3
|-3-|--6-5--3
|---|--4-3--1
     G#G          2x    
--------------------|-----|
--------------------|-----|
---------------4-5-*|-9-5-|
--5-6-5-3-5--7-4-5-*|-9-5-|
--5-6-5-3-5--7-2-3--|-7-3-|
--3-4-3-1-3--5------|-0---|
 
 
Couplet :
         
|------------
|------------
|-5----------
|-5--7--3--5-
|-3--7--3--5-
|----5--1--3-
         
|------------|
|------------|
|-5----------|
|-5--5--3--5-|
|-3--5--3--5-|
|----3--1--3-|
 
 
Le directeur général des élections...
 
 
...J'fais confiance aux politiciens
 
 
Refrain 1 :
 
Guitare 1 :  
 
Guitare 2 :
          
|-------------
|-------------
|-5-----------
|-5-(-7--3--5-
|-3-(-7--3--5-
|---(-5--1--3-
             
-------------------
-------------------
--7--5--------5--10
)-7--5--5--3--x--x-
)-5--3--5--3--3--8-
)-------3--1-------
           2x
-|--------------|
-|--------------|
-|*-5----------*|
-|*-5--5--3--5-*|
-|--3--5--3--5--|
-|-----3--1--3--|
 
 
Un vote de moins un vote de moins...
...Pour ce beau pays de crétins
 
 
Solo :
|------
|------
|-9----
|--10--
|------
|------
-----
----6
7----
--9--
-----
-----
-----
-----
-5---
---7-
-----
-----
-----
-----
----4
-----
-----
-----
-----
----8
-5---
-----
-----
-----
--|
--|
--|
--|
--|
--|
 
 
(Couplet)
 
 
Décalissez-la ma planète...
...De parasites perdants et morons
 
 
Refrain 2 :
          
|-------------
|-------------
|-5-----------
|-5-(-7--3--5-
|-3-(-7--3--5-
|---(-5--1--3-
         1
-------------|
-------------|
--7--5-------|
)-7--5--5--3-|
)-5--3--5--3-|
)-------3--1-|
.C  2
----|
----|
---*|
-5-*|
-5--|
-3--|
.C   
------
------
-5--10
-x--x-
-3--8-
-.--.-
   
----|
----|
--5-|
--5-|
--3-|
----|
 
 
un vote de moins un vote de moins...
...puisque maintenant, un rot en fait pas ben moins.
 
 
Finale :
 
 
   
|----
|----
|-5--
|-5--
|-3--
|----
D#D
----|
----|
8-7-|
8-7-|
6-5-|
----|
 
 
 
Le directeur général des élections
Demande ma participation
Aller voter comme une pauvre chiotte
Vous vous torcherez avec mon vote
 
 
Mon devoir de citoyen
Mon rôle à jouer face au destin
Pour que le monde crève en d'sous des ponts
J'fais confiance aux politiciens
 
 
Un vote de moins un vote de moins
Un vote de moins le mien
Mangez donc un gros char de marde
Ça va vous faire du bien
Un vote de moins
Pour ce beau pays de crétins'...
 
 
Décalissez-la ma planète
Décrissez Mars avec
Les électeurs sont des morons
Profitez-en y vous la laissent
 
 
Y sont occupés dans l'salon
À faire la production
De vidage de barils du colonel
Pour la nation
De parasites perdants et morons'...
 
 
un vote de moins un vote de moins
un vote de moins le mien
mettez dans votre assiette
c'que j'ai digéré ce matin
 
 
j'veux rien savoir j'ai rien à voir,
fais c'que tu veux ça m'dérange pu
chus pu capable d'y croire,
y m'auront pas les corrompus
j'ai pas de temps à perdre à faire valoir
un point qui vaut pu rien
puisque maintenant,
un rot en fait pas ben moins.

Contribution

WonderfullJoe, version 1.0

Évaluation

Votre évaluation ?

Recueil(s)

Vous devez vous inscrire ou vous enregistrer afin de gérer vos recueils de chansons...

Vidéo(s)

Version : 1.0
Dernière modification : 2014-11-21
Avertissement sur les droits d'auteurs concernant les textes