Recueils :

Artistes :

Titres :

Tonalité :
  • E
  • F
  • Gb
  • G
  • Ab
  • A
  • Bb
  • B
  • C
  • Db
  • D
  • Eb
  • E
Intro :
 
 
Guitare 1 :
          
|-----------------
|-----------------
|--8---8-------7-7
|--8-8-8-8-8-8-7-7
|--6-8-6-8-8-8-5-5
|----6---6-6-6----
   
-----
-----
-7---
-7-5-
-5-5-
---3-
    
-----|
-----|
-----|
5-5--|
5-5--|
3-3--|
 
 
        
|-----------|
|-----------|
|--8---7----|
|--8-8-7-5--|
|--6-8-5-5--|
|----6---3--|
 
 
Guitare 2 :
        
|-----------|
|-----------|
|--8---7----|
|--8-8-7-5--|
|--6-8-5-5--|
|----6---3--|
 pm...
 
 
Solo :
|------
|------
|*-----
|*----7
|--10--
|------
-----
-----
-----
-8---
---10
-----
-----
-----
-----
-7-8-
-----
-----
------
------
------
-10b11
------
------
-----
-----
-----
-8-7-
-----
-----
-----
-----
-----
---7-
10---
-----
--|
--|
--|
8-|
--|
--|
 
 
 2x
|------
|------
|------
|-10b11
|------
|------
-----
-----
-----
-8-7-
-----
-----
-----
-----
-----
---8-
10---
-----
-----
-----
-----
10b11
-----
-----
--------
--------
--------
-8-10b11
--------
--------
----|
----|
-7-*|
---*|
----|
----|
 
 
Couplet : Refrain :
 
        2x              
|-----------|---------------------|
|-----------|---------------------|
|--8---7----|--8----7-8--10-11----|
|--8-8-7-5--|--8-8--7-8--10-11-8--|
|--6-8-5-5--|--6-8--5-6--8--9--8--|
|----6---3--|----6-------------6--|
  .
 Je vais bifurquer ...
 ...J'ajouterai ma liste
 
 
Me sortir du jeu et tendre la main...
...Qui ne mene a rien
 
 
(Reprendre l'intro, couplet, Refrain)
 
 
Pour se questionner...
...ique ils t'endorment
 
 
et te dictent de ...
... sert a rien
 
 
Guitare

|------
|------
|*8-8-7
|*-----
|------
|------
 1 :
  4x
---|-
---|-
--*|-
-8*|-
---|-
---|-

-----
-----
--5-7
8----
-----
-----

-----
-----
-8-7-
-----
-----
-----

--|--
--|--
5-|*8
--|*-
--|--
--|--

-----
-----
-7-8-
-----
-----
-----
  6x
---|-
---|-
10*|-
--*|-
---|-
---|-

-----
10---
---10
-----
-----
-----

-----
-----
-8-7-
-----
-----
-----

|
|
|
|
|
|
 
 
Guitare 2 :
      
|-------|
|-------|
|--8----|
|--8-8--|
|--6-8--|
|----6--|
      .
 
 
(Couplet, Refrain)
 
 
Finale :
 
La guitare 2 joue couplet/Refrain
 Pendant que la guitare 1 joue :
                        
|--------------------|--------------
|--------------------|--------------
|-8-10-11--12--14-15-|-10-10---11-11
|-8-10-11--12--14-15-|-10---10-11---
|-6-8--9---10--12-13-|-8-------9----
|--------------------|--------------

      
-------|
-------|
---15--|
11-15--|
---13--|
-------|
 
 
Je vais bifurquer
Je suis désactivé
Par une surcharge d'impositions irréalistes
J'ajouterai à ma liste
Me sortir du jeu et tendre la main
Pour mieux être hors de cette route
Qui ne mène à rien
 
 
Pour se questionner
En ré-analyser
La substance même qui nous avale comme par éthique
Ils t'endorment et te dictent
De t'embarquer, t'enliser à pieds joints
Prisonnier de l'effort dans une course
Qui ne sert à rien

Contributions

Autres versions WonderfullJoe, version 1.0

Évaluation

Votre évaluation ?

Recueil(s)

Vous devez vous inscrire ou vous enregistrer afin de gérer vos recueils de chansons...

Vidéo(s)

Version : 1.1
Dernière modification : 2014-11-21
Avertissement sur les droits d'auteurs concernant les textes