Recueils :

Artistes :

Titres :

ON S'EST PRESQUE TOUCHÉ

Paroles et musique :Jim Corcoran
Capo II
Tonalité :
  • E
  • F
  • G♭
  • G
  • A♭
  • A
  • B♭
  • B
  • C
  • D♭
  • D
  • E♭
  • E
  (320030)
e|-----------
B|------3----
G|----0---0--
D|--0-------0
A|-----------
E|3----------
   1   2   3
 [Ce riff se
                      (024000)
       (024030)|  (x32030)
-0---|----------------|------------0--
-----|------3-----0---|0-----3--------
---0-|----0-----0---0-|----0-----0---0
-----|--4-----4-------|--2-----2------
-----|----------------|3--------------
-----|0---------------|---------------
  4    1   2   3   4    1   2   3   4
répette sans cesse, sauf exceptions]

-|---
-|0--
-|---
-|--2
-|---
-|2--
   1

            (202200)
 (202230)
-------------|
---3-----0---|
-2-----2-----|
-----2-----2-|
-------------|
-------------|
  2   3   4

[2x]








 
 
  _      On s'est  _       _      presque touché  _s_     _      
On s'est   _même    pres  - _      _        que connus_     _          _        
  _      J'ai  _      _        failli tout cro  i_-re _ _ 
Mais l  e mystè  __ -re      _ 
Se f _              aisait lourd__  _         _        
 
 
  _      J'ai  _      _      failli m'oubl  _ier_   _ 
M'ab  andonner  __      comme un  _     _    chiot_     _          _        
  _      J'crois  _               _      bien que j't'ai même a  _imée_  _ 
Mais l  e silen_-  _ce         _ 
Se f _              aisait lourd__  _         _ 
Beauc _          oup trop          lo  urd_   _ _ _        _      _ _ 
 
 
 |  _ _|  _ _|  _ _|  _ _|
 |  _ _|  _ _|  _ _|  _ _|
|  _ _|  _ _|  _ _|  _ _|
 
 
  _       _      _           J'voulais te tou  cher_ _ _        
Oui   vraiment  m _    _     _          et -tre les mains_    _          _        
  _    Mor_ _           _          -dre et me laisser mor  _-dre  _ _ 
Mais t  on  ab  _sen  -ce   _ 
Se f _               aisait lourde__  _         _        
 
 
  _    J'voul _        _        ais que tu te mon   -tres  _ _ 
Que t  u t'ra  contes que tu  _       _ _    te di_-ses     _          _        
  _    Il m _          _     e fallait te sen  tir   _ _ 
M  ais le   _doute      _ 
P _        esait lo  _urd___
Beauc _          oup trop          lo  urd    _ _ _ 
 
 
  _  On n's'est  _      _   jamais-ais  _ vus_  _ 
T _         u n't'es   jamais  _ _    _        présentée  __    _ _      _
_ _
Mais j't'attendais
J'te   cherchais _ 
J'te c _     _     onvoi -tais  _
_
Et j'te croyais
 
 
|  _  _|  _ (022200) _|  _  _|  _  _|
 
 
|  _ (355433)  (35543x)| (320002) _ (320003)  (32000x)| (xx0202)_ _ _|
 
 
|  _  _|  _  _|  _  _|  _  _|
 
 
|  _ (355433)  (35543x)| (320002) _ (320003)  (320005)
 
 
 | (x35346)   _  (x35345)  (x35343)  |
 | (x35346) _  (x35345)  (x3534x)|
| (x35336)  _  (x35335)   (x35333) |
| (x35543)    _  (x3536x)  (355333)   |
|   (x320003) _|  _ _ _|
 
 
|  _ _ _|  _ _ _|  _ _ _|
 
 
  _       _               _    On s'est presque  to  uchés_ _ _       
Oui   _Pres-que retr _  _       ouvés      _          _        
  _      J'ai  _      _           failli te rejoindr  e     _ _ 
Mais l  es dis  tances    _ _ 
Se f _              aisait lourdes  ___       _        
 
 
  _      T'aurais  _     _      pu me maudir  _e      _ 
Me m  entir   _       me re| _  _        -pousser    _          _        
  _      T'aurais  _        _         pu retourner mon a  _ppel__ _ 
Ha    le si  _lence      _ 
Se f _              aisait lourd !  !
 
 
. . . Em7 _ _
On n's'est jamais-ais vus_
T _         u n't'es   jamais  _ _    _        présentée  __    _ _      _
_ _
Mais j't'attendais
J'te   croyais _  
J'te c _     _     onvoi -tais  _     _ 
_
Et j'te cherchais
 
 
  (320030)
e|-----------
B|------3----
G|----0---0--
D|--0-------0
A|-----------
E|3----------
   1   2   3

-0---
-----
---0-
-----
-----
-----
  4
                 (024000)
  (024030)|  (x32030)
|----------------|------------0--
|------3-----0---|0-----3--------
|----0-----0---0-|----0-----0---0
|--4-----4-------|--2-----2------
|----------------|3--------------
|0---------------|---------------
  1   2   3   4    1   2   3   4

-|---
-|0--
-|---
-|--2
-|---
-|2--
   1
            (202200)
 (202230)
-------------|
---3-----0---|
-2-----2-----|
-----2-----2-|
-------------|
-------------|
  2   3   4
[2x]







 
 
   (320030)
e|------------
B|------3-----
G|----0---0---
D|--0-------0-
A|------------
E|3-----------
   1   2   3

0---|-
----|-
--0-|-
----|-
----|-
----|0
 4
               (024000)
 (024030)|  (024030)|
---------------|-------------
-----3-----0---|------3-----0
---0-----0---0-|----0-----0--
-4-----4-------|--4-----4----
---------------|-------------
---------------|0------------
1   2   3   4    1   2   3
    (024000)
  (024030)|
---|------------
---|------3-----
-0-|----0-----0-
---|--4-----4---
---|------------
---|0-----------
4    1   2   3
    

----|
0---|
----|
----|
----|
----|e6,0
 4
(024000)






 _ _ _

 

Contribution

Bernard LebeauBernard Lebeau, version 1.0

Évaluation

Votre évaluation ?

Recueil(s)

Vous devez vous inscrire ou vous enregistrer afin de gérer vos recueils de chansons...

Vidéo(s)

Version : 1.0
Dernière modification : 2023-09-09
AvertissementAvertissement sur les droits d'auteurs concernant les textes