Auteur Sujet: Recherche Partitions de Joan Jett I love rock'n' roll  (Lu 3246 fois)

ptitpome77

  • Membre
  • Newbie
  • *
  • Messages: 1
    • Voir le profil
Recherche Partitions de Joan Jett I love rock'n' roll
« le: juin 29, 2008, 05:50:03 am »
Bonjour je recherche les accord de Joan jett i love rock'n'roll ! Merci d'avance bonne continuation !^^

modlau

  • Membre
  • Newbie
  • *
  • Messages: 6
    • Voir le profil
Re : Recherche Partitions de Joan Jett I love rock'n' roll
« Réponse #1 le: juillet 19, 2008, 04:56:37 am »
   E             E              A          B
                          b                         b
e|-0--0----------0--0-------------------------------------|
b|-0--0----------0--0-----------2--2-------4--4-----------|
g|-1--1----------1--1-----------2--2-------4--4-----------|
D|-2--2----------2--2-----------2--2-------4--4-----------|
A|-2--2----------2--2-----------0--0-------2--2-----------|
E|-0--0----------0--0-----3-4-----------------------3-4---|


   E             E              A          B      E
                          b
e|-0--0----------0--0-------------------------------------|
b|-0--0----------0--0-----------2--2-------4--------------|
g|-1--1----------1--1-----------2--2-------4--------------|
D|-2--2----------2--2-----------2--2-------4------2-------|
A|-2--2----------2--2-----------0--0-------2------0-------|
E|-0--0----------0--0-----3-4-----------------------------|


Partie2

   E                      E       
   Guitare1                              b               ~~~~~  s
e|-0--0------------------------------------------------------------|
b|-0--0-----------------------------15--17---12--------------------|
g|-1--1-------------------9--9--------------------14--12----12-\---|
D|-2--2-------------------9--9-------------------------------------|
A|-2--2-------------------7--7-------------------------------------|
E|-0--0-------------------0--0-------------------------------------|
 |                                                                 |
 | Guitare2                                                        |
e|-0--0------------------------------------------------------------|
b|-0--0------------------------------------------------------------|
g|-1--1-------------------9--9-------------------------------------|
D|-2--2-------------------9--9-------------------------------------|
A|-2--2-------------------7--7-------7---5-------------------------|
E|-0--0-------------------0--0----------------7----5---3-----x-----|


Partie3

                                    1/2  1/2  1/2 whammy/bar   
e|--------------------0--0----------------------------------------------------|
b|-2--2-----4--4------0--0------2-----------------------------4--4--4--4--4--4|
g|-2--2-----4--4------1--1------2-----------------------------4--4--4--4--4--4|
D|-2--2-----4--4------2--2------2-----------------------------4--4--4--4--4--4|
A|-0--0-----2--2------2--2------0-----------------------------2--2--2--2--2--2|
E|--------------------0--0----------------------------------------------------|

Partie1:Intro

Partie2:

I saw him dancin' there by the record machine.
I knew he must 've been about seventeen.

Partie3:

The beat was going strong, playin' my fav'rite song.
And I could tell it wouldn't be long till he was with me,
Yeah,me.
And I could tell it wouldn't be long till he was with me,
Yeah me, singin':

Partie1:

I love rock'n roll, so put another dime in the jukebox baby
I love rock'n'roll, so come and take your time and dance with me.   Ow!

Partie2:

He smiled so I got up and asked for his name.
"That don't matter,"he said,"'cause it's all the same"

Partie3:

I said,"Can I take you home,where we can be alone?"
And next we were movin' on and he was with me,
Yeah,me
Next we were movin' on and he was with me,
Yeah me,singin':

Partie1:

I love rock'n'roll, so put another dime in the jukebox baby
I love rock'n'roll, so come and take your time and dance with me.       

Solo (sur Partie2)

       AH   b           1/2 descente whammy/bar          b          b
e|-------------------------------------------------------12-------------------|
b|------------------------------------------------------------------12--12--12|
g|----------------------7------------------9--11--11-13-----11-13-------11---9|
D|-------------------x--6-------------/11-------------------------------------|
A|----------------------------------------------------------------------------|
E|-0--x--x-2-3-2--0-----------------------------------------------------------|


                      I said,"Can I take you home,where we can be alone?"
 
   ~~~~~~~~~               s      s                s                 s    descente
e|----------------------------------------------------------------------------|
b|12--------------12---------------------------------------------------------2|
g|11------------9-----9-9-9\8-8--8\6-6-6-------------------------------------2|
D|-----9-9-9-11---------------------------9-9-9-9-9\7-7-7---6-6-6-6-6\4-2----2|
A|------------------------------------------------------------------------4--0|
E|----------------------------------------------------------------------------|



Next we were movin' on
He was with me, yeah me.
And we'll be movin'on and singin' that same old song
Yeah, with me singin:
I love rock'n'roll, so put another dime in the jukebox baby.
I love rock'n'roll, so come and take your time and dance with me.

Partie1:

I love rock'n'roll, so put another dime in the jukebox baby
I love rock'n'roll, so come and take your time and dance with me.

Partie1:

I love rock'n'roll, so put another dime in the jukebox baby
I love rock'n'roll, so come and take your time and dance with me.

Partie1+Partie4 (Rappel:il y a 3 guitares!)
I love Rock`n`Roll, so put another dime in the jukebox
baby. I love Rock`n`Roll, so come and take your time and
Dance with me.


Partie4                            s                                 accord final

  Guitare3
e|7-7-7-7-7-7-7-7-7-7-7-7-7-7-7-7-6\7-7-7-7-7-7-7-7-7-7-7-7-7-7-7-|-----------|
b|5-5-5-5-5-5-5-5-5-5-5-5-5-5-5-5-4\5-5-5-5-5-5-5-5-5-5-5-5-5-5-5-|-----------|
g|----------------------------------------------------------------|-----9-----|
D|----------------------------------------------------------------|-----9-----|
A|----------------------------------------------------------------|-----7-----|
E|----------------------------------------------------------------|-----0-----|









JOAN JETT - I love rock'n roll

tab:Edel [email protected]

Legende: b=bend       
         s=slide     
         ~=Vibrato
         HA=Harmonique Artificielle

Intro:Partie1

   E             E              A          B
                          b                         b
e|-0--0----------0--0-------------------------------------|
b|-0--0----------0--0-----------2--2-------4--4-----------|
g|-1--1----------1--1-----------2--2-------4--4-----------|
D|-2--2----------2--2-----------2--2-------4--4-----------|
A|-2--2----------2--2-----------0--0-------2--2-----------|
E|-0--0----------0--0-----3-4-----------------------3-4---|


   E             E              A          B      E
                          b
e|-0--0----------0--0-------------------------------------|
b|-0--0----------0--0-----------2--2-------4--------------|
g|-1--1----------1--1-----------2--2-------4--------------|
D|-2--2----------2--2-----------2--2-------4------2-------|
A|-2--2----------2--2-----------0--0-------2------0-------|
E|-0--0----------0--0-----3-4-----------------------------|


Partie2

   E                      E       
   Guitare1                              b               ~~~~~  s
e|-0--0------------------------------------------------------------|
b|-0--0-----------------------------15--17---12--------------------|
g|-1--1-------------------9--9--------------------14--12----12-\---|
D|-2--2-------------------9--9-------------------------------------|
A|-2--2-------------------7--7-------------------------------------|
E|-0--0-------------------0--0-------------------------------------|
 |                                                                 |
 | Guitare2                                                        |
e|-0--0------------------------------------------------------------|
b|-0--0------------------------------------------------------------|
g|-1--1-------------------9--9-------------------------------------|
D|-2--2-------------------9--9-------------------------------------|
A|-2--2-------------------7--7-------7---5-------------------------|
E|-0--0-------------------0--0----------------7----5---3-----x-----|


Partie3

                                    1/2  1/2  1/2 whammy/bar   
e|--------------------0--0----------------------------------------------------|
b|-2--2-----4--4------0--0------2-----------------------------4--4--4--4--4--4|
g|-2--2-----4--4------1--1------2-----------------------------4--4--4--4--4--4|
D|-2--2-----4--4------2--2------2-----------------------------4--4--4--4--4--4|
A|-0--0-----2--2------2--2------0-----------------------------2--2--2--2--2--2|
E|--------------------0--0----------------------------------------------------|

Partie1:Intro

Partie2:

I saw him dancin' there by the record machine.
I knew he must 've been about seventeen.

Partie3:

The beat was going strong, playin' my fav'rite song.
And I could tell it wouldn't be long till he was with me,
Yeah,me.
And I could tell it wouldn't be long till he was with me,
Yeah me, singin':

Partie1:

I love rock'n roll, so put another dime in the jukebox baby
I love rock'n'roll, so come and take your time and dance with me.   Ow!

Partie2:

He smiled so I got up and asked for his name.
"That don't matter,"he said,"'cause it's all the same"

Partie3:

I said,"Can I take you home,where we can be alone?"
And next we were movin' on and he was with me,
Yeah,me
Next we were movin' on and he was with me,
Yeah me,singin':

Partie1:

I love rock'n'roll, so put another dime in the jukebox baby
I love rock'n'roll, so come and take your time and dance with me.       

Solo (sur Partie2)

       AH   b           1/2 descente whammy/bar          b          b
e|-------------------------------------------------------12-------------------|
b|------------------------------------------------------------------12--12--12|
g|----------------------7------------------9--11--11-13-----11-13-------11---9|
D|-------------------x--6-------------/11-------------------------------------|
A|----------------------------------------------------------------------------|
E|-0--x--x-2-3-2--0-----------------------------------------------------------|


                      I said,"Can I take you home,where we can be alone?"
 
   ~~~~~~~~~               s      s                s                 s    descente
e|----------------------------------------------------------------------------|
b|12--------------12---------------------------------------------------------2|
g|11------------9-----9-9-9\8-8--8\6-6-6-------------------------------------2|
D|-----9-9-9-11---------------------------9-9-9-9-9\7-7-7---6-6-6-6-6\4-2----2|
A|------------------------------------------------------------------------4--0|
E|----------------------------------------------------------------------------|



Next we were movin' on
He was with me, yeah me.
And we'll be movin'on and singin' that same old song
Yeah, with me singin:
I love rock'n'roll, so put another dime in the jukebox baby.
I love rock'n'roll, so come and take your time and dance with me.

Partie1:

I love rock'n'roll, so put another dime in the jukebox baby
I love rock'n'roll, so come and take your time and dance with me.

Partie1:

I love rock'n'roll, so put another dime in the jukebox baby
I love rock'n'roll, so come and take your time and dance with me.

Partie1+Partie4 (Rappel:il y a 3 guitares!)
I love Rock`n`Roll, so put another dime in the jukebox
baby. I love Rock`n`Roll, so come and take your time and
Dance with me.


Partie4                            s                                 accord final

  Guitare3
e|7-7-7-7-7-7-7-7-7-7-7-7-7-7-7-7-6\7-7-7-7-7-7-7-7-7-7-7-7-7-7-7-|-----------|
b|5-5-5-5-5-5-5-5-5-5-5-5-5-5-5-5-4\5-5-5-5-5-5-5-5-5-5-5-5-5-5-5-|-----------|
g|----------------------------------------------------------------|-----9-----|
D|----------------------------------------------------------------|-----9-----|
A|----------------------------------------------------------------|-----7-----|
E|----------------------------------------------------------------|-----0-----|






Cached since : 2008-07-19 10:36:21