Connexion membre

Recueils : publics
persos
Artistes :
Titres :

[Intro]
 
Guitare 1 :
|-----------
|-----------
|----4-4-4-4
|----4-4-4-4
|----4-4-4-4
|-----------
-----
-----
-----
-----
-----
-----
-----
-----
-----
-----
-----
-----
-----
-----
-----
-----
-----
-----
-----
-----
-----
-----
-----
-----
--|
--|
--|
--|..
--|
--|



.


 
 
Guitare 2 :
|-----------
|------7----
|----7---7-7
|---9-9---9-
|-----------
|-----------
-----
---7-
-7--7
9-9--
-----
-----
-----
-----
-7-7
9-9-9
-----
-----
-----
7----
-7-7-
--9-9
-----
-----
-----
--7--
7---7
-9---
-----
-----
-----
--7--
-7---
9----
-----
-----
-|
-|
-|
-|
-|
-|
 
 
Guitare 3 : (discrètement)
|--------------------------
|--------------------------
|----5(6x)3(6x)1(6x)1(6x)--
|----5----3----1----1------
|----3----1----0----0------
|--------------------------
----|
----|
----|
----|.
----|
----|



..


 
 
[Couplet]
 
Guitare 1 :
|-----------
|-----------
|----6(7x a
|----6------
|----4------
|-----------
---------------
---------------
peu pres)7(meme
---------7-----
---------5-----
---------------
-------
-------
 chose)
-------
-------
-------
-----
-----
-----
-----
-----
-----
-----
-----
-----
-----
-----
-----
-----
-----
-----
-----
-----
-----
--|
--|
--|
--|
--|
--|
 
 
Guitare 2 :
|-----------
|-----------
|----8(6x a
|----X------
|----6------
|-----------
 (2x)
-------------------------------------
-------------------------------------
peu pres)7(pareil)8(pareil)12(pareil)
---------X--------X--------X---------
---------5--------6--------10--------
-------------------------------------

--|
--|
--|
--|
--|
--|

 
 
[Refrain :]
 
On s'en va nul part si...
 
 
Guitare 1 :
|-----------
|-----------
|-----------
|----5(6x a
|----5------
|----3------
-----
-----
-----
preu
-----
-----
--------------------------------
--------------------------------
--------------------------------
pres)6(pareil)5(pareil)4(pareil)
-----6--------5--------4--------
-----4--------3--------1--------
-|
-|
-|
-|(2x)
-|
-|
 
 
|----
|----
|----
|----
|----
|----
-----
-----
-----
5----
5----
3----
----|
----|
----|
----|.
----|
----|


..


 
 
Guitare 2 :
|-----------
|------7----
|----7---7-7
|---9-9---9-
|-----------
|-----------
-----
---8-
-7--7
9-9--
-----
-----
-----
-----
-7-7
9-9-9
-----
-----
-----
9----
-7-7-
--9-9
-----
-----
-----
--7--
7---7
-9---
-----
-----
-----
-----
-7---
9----
-----
-----
-|
-|
-|
-|(2x)
-|
-|
 
 
[Post-Couplet]
 
 
Guitare 2 :
|-----------
|-----------
|----5(6x a
|----X------
|----3------
|-----------
-------------------------------------
-------------------------------------
peu pres)7(pareil)8(pareil)12(pareil)
---------X--------X--------X---------
---------5--------6--------10--------
-------------------------------------
--|
--|
--|(2x)
--|
--|
--|
 
 
Guitare 3 : (discrètement)
|--------------------------
|--------------------------
|----5(6x)3(6x)1(6x)1(6x)--
|----5----3----1----1------
|----3----1----0----0------
|--------------------------
----|
----|
----|
----|
----|
----|
 
 
[Finale :]
 
ahahah ahahah ahahah ahahhhhhh
 
 
Guitare 1 :
|-----------
|-----------
|-----------
|----5(6x a
|----5------
|----3------
-----
-----
-----
preu
-----
-----
--------------------------------
--------------------------------
--------------------------------
pres)6(pareil)5(pareil)4(pareil)
-----6--------5--------4--------
-----4--------3--------1--------
-|
-|
-|
-|(2x)
-|
-|
 
 
Guitare 2 :
|----------
|----777-77
|----777-77
|----------
|----------
|----------
-----
-666-
-666-
-----
-----
-----
------
66-777
66-777
------
------
------
-------
-77-888
-77-888
-------
-------
-------
-----
-88--
-88--
-----
-----
-----
-----
-----
-----
-----
-----
-----
-----
-----
-----
-----
-----
-----
---|
---|
---|
---|
---|
---|
 
__________________________
 
Paroles :
 
On dirait une parade de mode
Des milliers de moutons s'enlisent dans un code
Destiné à détruire le système
Qui se mettent à nourrir pour flasher au Vans
Au supermarché punk
Ça coûte cher être un comme
 
 
J'aurais bien voulu briser le moule
À jamais me fondre au milieu du pit
Sentir la construction pacifiste
Entrer dans la salle par conviction politique
Mais dans l'esprit collectif
Plus de substance, plus d'éthique
 
 
On ne s'en va nulle part si
la substance se résume au symbole
On ne s'en va nulle part si
l'action ne confirme pas le sens de nos paroles
Être un comme
 
 
Je n'ai jamais pu même une journée
Constater que la cohérence était possible
S'investir, s'accorder au concept
Sans caller de la pisse chaude avec une pout'frète
Jeunesse de punks incorporés
En culture d'abondance de fond de garde-robe
Scander l'anarchie en symbole
Et porter fièrement ton cliché du Che
Ton tatou en barre code
Est-ce que c'est ça la révolte
 
 
On ne s'en va nulle part
si la substance se résume au symbole
On ne s'en va nulle part
si l'action ne confirme pas le sens de nos paroles
Être un comme
Version : 1.0
Dernière modification : 2014-11-21
Avertissement Avertissement sur les droits d'auteurs concernant les textes