Connexion membre

Recueils : publics
persos
Artistes :
Titres :
Tonalité :

    D 
    1
 e|---
 B|---
 G|---
 D|-0-
 A|---
 E|---
+ 2 +
--2--
-----
2----
----0
-----
-----
 3 +
-----
---3-
-2---
-----
-----
-----
4 +
----|
----|
--2-|
0---|
----|
----|
  Em7 
 1 + 2
-----3
------
---0--
------
------
-0----
 + 3
-----
-----
---0-
-2---
-----
-----
+ 4 +
-----
3----
----0
--2--
-----
-----
    1
-||--
-||*-
-||--
-||--
-||*-
-||-2
 F# 
 + 2
---2-
-----
-----
-4---
-----
-----
     F#7 
+ 3 + 4 +
------2--
---------
----3----
4-2-----2
---------
---------
   1
-|---
-|---
-|---
-|-0-
-|---
-|---
  Bm/D 
+ 2 + 3
--2----
----0--
4------
-------
------4
-------
    F#/C# 
 + 4 +
---2---|
-----2-|
-3-----|
-------|
-------|
-------|
 
    Bm 
    1 +
e|-----
B|-----
G|-----
D|---4-
A|-2---
E|-----
 2 +
2----
--3--
-----
----4
-----
-----
3 + 4
---2-
-----
-4---
-----
-----
-----
 +
--|--
3-|--
--|--
--|--
--|-2
--|--
1 + 2
---2-
-----
-----
-4---
-----
-----
 + 3
-----
3----
----4
--4--
-----
-----
+ 4 +
-2---
---3-
-----
-----
-----
-----
  Em(add9)  Em/B 
   1 + 2 + 3 + 4
|-----2-------0--
|-------0-------0
|----------------
|---2-------2----
|---------2------
|-0--------------
+   1
-|---
-|---
-|---
-|---
-|-2-
-|---
 Em7/B 
 + 2 +
-------
--3-0--
-------
2------
------2
-------
  Em6/B 
3 + 4 +
-------|
---2-0-|
-------|
-2-----|
-------|
-------|
 
    A6 
   1 +
e|-----
B|-----
G|-----
D|---2-
A|-0---
E|-----
2 + 3
2----
--2--
-----
-----
----0
-----
 A 
 + 4
---0-
-----
-----
-2---
-----
-----
+   1
--|--
2-|--
--|--
--|--
--|-0
--|--
  A(sus4)  A 
 + 2 + 3 + 4
-----------0-
---3---------
-----2-------
-2-------2---
-------0-----
-------------
+   1
--|--
2-|--
--|--
--|-0
--|--
--|--
    D 
 + 2 +
---2--
-----3
-2----
------
------
------
 3 +
-----
-----
---0-
-----
-4---
-----
 C#7(dim) 
4 +   1 +
0---|-----
--0-|-----
----|-----
----|---4-
----|-2---
----|-----
    Bm 
2 + 3 +
2-------
--3-----
------4-
--------
--------
--------
4 +
2---|
--3-|
----|
----|
----|
----|
 

     Em 
    1 +
e|-----0
B|------
G|------
D|---2--
A|------
E|-0----

    Em(add9)/B  Em/B 
2 + 3 + 4 +   1 + 2 +
-------2---|-----3---
-0-------0-|-------0-
-----------|---------
-----2-----|---2-----
---2-------|-2-------
-----------|---------


 3 +
----0
-----
-----
--2--
2----
-----
   _____________________________________
   |1. 2.
   | A        A6         A7       A 
4 +   1 + 2 + 3 + 4 +   1 + 2 + 3 + 4 +
---|-----0-------2---|-----3-------0---|
-0-|-------2-------2-|-------2-------2-|
---|-----------------|-----------------|
---|---2-------2-----|---2-------2-----|
---|-0-------0-------|-0-------0-------|
---|-----------------|-----------------|
 
__________________________________________________________________________
                                                                         |
    D        D(sus4)    D                 G                              |
   1 + 2 + 3 + 4 +   1 + 2 + 3 + 4 +   1 + 2 + 3 + 4 +   1 + 2 + 3 + 4 + |
e|-----2-------3---|-----2-------2---|-----3-------3---|-----3-------3---||
B|-------3-------3-|-------3---------|-------0-------0-|-------0--------*||
G|---2-------2-----|---2-------2-----|-----------------|-----------------||
D|-0-------0-------|-0-------0-------|---0-------0-----|---0-------0-----||
A|-----------------|---------------0-|---------2-------|---------2------*||
E|-----------------|-----------------|-3---------------|-3-------------3-||
 
 _____________________________________
 |3.
| Bm7                                  C 
   1 + 2 + 3 + 4 +   1 + 2 + 3 + 4 +   1
e|-----5-2---2-5-2-|-----5-2---2-5-2-|---
B|-----------------|-----------------|---
G|-----------------|-----------------|---
D|---4-----4-------|---4-----4-------|---
A|-2---------------|-2---------------|-3-
E|-----------------|-----------------|---


+ 2 +
0-3-0
-----
-----
-----
-----
-----

  C/G 
 3 + 4
---0-3
------
------
------
------
-3----


 +
-0-|-
---|-
---|-
---|-
---|-
---|-

  C 
1 + 2
--0-3
-----
-----
-----
3----
-----


 + 3
-0---
-----
-----
-----
-----
---3-

 C/G 
+ 4 +
0-3-0-
------
------
------
------
------



|
|
|
|
|
|
 
    Gmaj7 
   1 + 2 +
e|-----2--
B|-------0
G|--------
D|---0----
A|--------
E|-3------
 3 +
-----
---0-
-----
-0---
-----
-----
4 +
2---|
--0-|
----|
----|
----|
----|
 1 +
-----
-----
-----
---0-
-----
-3---
2 + 3
2----
--0--
-----
-----
-----
----3
 + 4
---2-
-----
-----
-0---
-----
-----
+   1
--|--
0-|--
--|--
--|--
--|-0
--|--
 Am 
 + 2
---0-
-----
-----
-2---
-----
-----
+ 3 +
-----
1----
-----
----2
--0--
-----
 4 +
-0---
---1-
-----
-----
-----
-----
   D#7(dim) 
  1 + 2 + 3 +
|-----2------
|-------1----
|---2-------2
|-1-------1--
|------------
|------------
 4 +
-2---
---1-
-----
-----
-----
-----

|
|
|
|
|
|
 
   Em(add9)  Em/B 
   1 + 2 + 3 + 4 +
e|-----2-------0--
B|-------0-------0
G|----------------
D|---2-------2----
A|---------2------
E|-0--------------
    Em(add9)  Em/B 
   1 + 2 + 3 + 4 +
-|-----2-------0---
-|-------0-------0-
-|-----------------
-|---2-------2-----
-|---------2-------
-|-0---------------
  1 +
|----
|----
|----
|---3
|----
|-1--
 F 
 2 +
-----
---1-
-2---
-----
-----
-----
3 + 4
----1
-----
--2--
3----
-----
-----
 +
---|
-1-|
---|
-1-|
---|
---|
 
   B7 
    1
e|-----
B|-4---
G|-2---
D|-4---
A|-2---
E|-----
    rit
  D#7(dim)  F#7(dim) 
    2      3      4
---2------5------8---
---1------4------7---
---2------5------8---
---1------4------7---
---------------------
---------------------
.
  A7(dim) 
    1 + 2
-|--------
-|--------
-|-------0
-|-----2--
-|---2----
-|-0------

  Em(add9) 
+ 3 + 4 +
---2-----||
-0-------||
---------||
---------||
---------||
---------||

 
Notes :
 
-Laisser sonner les notes tout au long de la pièce
 
-Les chiffres au-dessus des mesures représentent les temps, vu que la
tablature n'indique pas le rythme.
 
-Les étoiles sont des points de reprise : reprendre à la 3e mesure.
 
-La partition telle qu'écrite représente la première partie (jusqu'à la fin
de la première boîte). Lors des reprises, les accords demeurent à peu près
 les mêmes (les notes ajoutées peuvent changer, ex : Em(add9)  peut devenir
 simplement  Em ), mais il y a des variations dans les patrons de la main
droite (ou de la gauche chez les gauchers). À partir de la troisième boîte
la partition est de nouveau précise.
 
-Il y a un ralentissement drastique dans les deux dernières mesures, mais
mais surtout dans la dernière.
 
-Dans l'avant-dernière mesure, jouer les trois accords diminués en arpège
(avec le pouce, de la note la plus basse à la plus aigue).
Version : 1.0
Dernière modification : 2009-06-02
Avertissement Avertissement sur les droits d'auteurs concernant les textes